0
SECTION
2
HEADER
9
$INSUNITS
70
4
9
$ACADVER
1
AC1014
9
$HANDSEED
5
FFFF
0
ENDSEC
0
SECTION
2
TABLES
0
TABLE
2
VPORT
5
8
100
AcDbSymbolTable
0
ENDTAB
0
TABLE
2
LTYPE
5
5
100
AcDbSymbolTable
0
LTYPE
5
14
100
AcDbSymbolTableRecord
100
AcDbLinetypeTableRecord
2
BYBLOCK
70
0
0
LTYPE
5
15
100
AcDbSymbolTableRecord
100
AcDbLinetypeTableRecord
2
BYLAYER
70
0
0
ENDTAB
0
TABLE
2
LAYER
5
2
100
AcDbSymbolTable
70
2
0
LAYER
5
50
100
AcDbSymbolTableRecord
100
AcDbLayerTableRecord
2
0
70
0
6
CONTINUOUS
0
ENDTAB
0
TABLE
2
STYLE
5
3
100
AcDbSymbolTable
70
1
0
STYLE
5
11
100
AcDbSymbolTableRecord
100
AcDbTextStyleTableRecord
2
STANDARD
70
0
0
ENDTAB
0
TABLE
2
VIEW
5
6
100
AcDbSymbolTable
70
0
0
ENDTAB
0
TABLE
2
UCS
5
7
100
AcDbSymbolTable
70
0
0
ENDTAB
0
TABLE
2
APPID
5
9
100
AcDbSymbolTable
70
2
0
APPID
5
12
100
AcDbSymbolTableRecord
100
AcDbRegAppTableRecord
2
ACAD
70
0
0
ENDTAB
0
TABLE
2
DIMSTYLE
5
A
100
AcDbSymbolTable
70
1
0
ENDTAB
0
TABLE
2
BLOCK_RECORD
5
1
100
AcDbSymbolTable
70
1
0
BLOCK_RECORD
5
1F
100
AcDbSymbolTableRecord
100
AcDbBlockTableRecord
2
*MODEL_SPACE
0
BLOCK_RECORD
5
1B
100
AcDbSymbolTableRecord
100
AcDbBlockTableRecord
2
*PAPER_SPACE
0
ENDTAB
0
ENDSEC
0
SECTION
2
BLOCKS
0
BLOCK
5
20
100
AcDbEntity
100
AcDbBlockBegin
2
*MODEL_SPACE
0
ENDBLK
5
21
100
AcDbEntity
100
AcDbBlockEnd
0
BLOCK
5
1C
100
AcDbEntity
100
AcDbBlockBegin
2
*PAPER_SPACE
0
ENDBLK
5
1D
100
AcDbEntity
100
AcDbBlockEnd
0
ENDSEC
0
SECTION
2
ENTITIES
0
LINE
5
100
100
AcDbEntity
8
0
100
AcDbLine
10
0
20
0
30
0
11
0
21
-15
31
0
0
LINE
5
101
100
AcDbEntity
8
0
100
AcDbLine
10
5
20
-20
30
0
11
27.733333333333338
21
-20
31
0
0
LINE
5
102
100
AcDbEntity
8
0
100
AcDbLine
10
32.733333333333341
20
-15
30
0
11
32.733333333333341
21
0
31
0
0
LINE
5
103
100
AcDbEntity
8
0
100
AcDbLine
10
32.733333333333341
20
0
30
0
11
67.066666666666677
21
0
31
0
0
LINE
5
104
100
AcDbEntity
8
0
100
AcDbLine
10
67.066666666666677
20
0
30
0
11
67.066666666666691
21
-15
31
0
0
LINE
5
105
100
AcDbEntity
8
0
100
AcDbLine
10
72.066666666666691
20
-20
30
0
11
94.800000000000026
21
-20
31
0
0
LINE
5
106
100
AcDbEntity
8
0
100
AcDbLine
10
99.800000000000026
20
-15
30
0
11
99.800000000000011
21
0
31
0
0
LINE
5
107
100
AcDbEntity
8
0
100
AcDbLine
10
99.800000000000011
20
0
30
0
11
134.13333333333333
21
0
31
0
0
LINE
5
108
100
AcDbEntity
8
0
100
AcDbLine
10
134.13333333333333
20
0
30
0
11
134.13333333333333
21
-15
31
0
0
LINE
5
109
100
AcDbEntity
8
0
100
AcDbLine
10
139.13333333333333
20
-20
30
0
11
161.86666666666667
21
-20
31
0
0
LINE
5
110
100
AcDbEntity
8
0
100
AcDbLine
10
166.86666666666667
20
-15
30
0
11
166.86666666666667
21
0
31
0
0
LINE
5
111
100
AcDbEntity
8
0
100
AcDbLine
10
166.86666666666667
20
0
30
0
11
200
21
0
31
0
0
LINE
5
112
100
AcDbEntity
8
0
100
AcDbLine
10
5
20
-20
30
0
11
0
21
-15
31
0
0
LINE
5
113
100
AcDbEntity
8
0
100
AcDbLine
10
27.733333333333338
20
-20
30
0
11
32.733333333333341
21
-15
31
0
0
LINE
5
114
100
AcDbEntity
8
0
100
AcDbLine
10
94.800000000000026
20
-20
30
0
11
99.800000000000026
21
-15
31
0
0
LINE
5
115
100
AcDbEntity
8
0
100
AcDbLine
10
72.066666666666691
20
-20
30
0
11
67.066666666666691
21
-15
31
0
0
LINE
5
116
100
AcDbEntity
8
0
100
AcDbLine
10
161.86666666666667
20
-20
30
0
11
166.86666666666667
21
-15
31
0
0
LINE
5
117
100
AcDbEntity
8
0
100
AcDbLine
10
139.13333333333333
20
-20
30
0
11
134.13333333333333
21
-15
31
0
0
LINE
5
118
100
AcDbEntity
8
0
100
AcDbLine
10
265.83048353912687
20
154.06437577016044
30
0
11
251.56463579469957
21
158.69963068578465
31
0
0
LINE
5
119
100
AcDbEntity
8
0
100
AcDbLine
10
269.04068114872791
20
147.76400821680991
30
0
11
265.83048353912687
21
154.06437577016044
31
0
0
LINE
5
120
100
AcDbEntity
8
0
100
AcDbLine
10
262.01569480993743
20
126.14332341303341
30
0
11
269.04068114872791
21
147.76400821680991
31
0
0
LINE
5
121
100
AcDbEntity
8
0
100
AcDbLine
10
262.01569480993743
20
126.14332341303341
30
0
11
255.71532725658693
21
122.93312580343239
31
0
0
LINE
5
122
100
AcDbEntity
8
0
100
AcDbLine
10
241.4494795121596
20
127.56838071905662
30
0
11
255.71532725658693
21
122.93312580343239
31
0
0
LINE
5
123
100
AcDbEntity
8
0
100
AcDbLine
10
245.10574378304707
20
90.280185410632129
30
0
11
230.83989603861977
21
94.915440326256331
31
0
0
LINE
5
124
100
AcDbEntity
8
0
100
AcDbLine
10
248.31594139264809
20
83.979817857281631
30
0
11
245.10574378304707
21
90.280185410632129
31
0
0
LINE
5
125
100
AcDbEntity
8
0
100
AcDbLine
10
241.29095505385763
20
62.359133053505147
30
0
11
248.31594139264809
21
83.979817857281631
31
0
0
LINE
5
126
100
AcDbEntity
8
0
100
AcDbLine
10
241.29095505385763
20
62.359133053505147
30
0
11
234.9905875005071
21
59.148935443904108
31
0
0
LINE
5
127
100
AcDbEntity
8
0
100
AcDbLine
10
220.7247397560798
20
63.784190359528317
30
0
11
234.9905875005071
21
59.148935443904108
31
0
0
LINE
5
128
100
AcDbEntity
8
0
100
AcDbLine
10
220.56621529777783
20
-1.4250573060231808
30
0
11
227.59120163656829
21
20.195627497753318
31
0
0
LINE
5
129
100
AcDbEntity
8
0
100
AcDbLine
10
220.56621529777783
20
-1.4250573060231808
30
0
11
214.2658477444273
21
-4.6352549156242118
31
0
0
LINE
5
130
100
AcDbEntity
8
0
100
AcDbLine
10
200
20
0
30
0
11
214.2658477444273
21
-4.6352549156242118
31
0
0
LINE
5
131
100
AcDbEntity
8
0
100
AcDbLine
10
227.59120163656829
20
20.195627497753318
30
0
11
224.38100402696728
21
26.495995051103822
31
0
0
LINE
5
132
100
AcDbEntity
8
0
100
AcDbLine
10
224.38100402696728
20
26.495995051103822
30
0
11
210.11515628253994
21
31.131249966728035
31
0
0
LINE
5
133
100
AcDbEntity
8
0
100
AcDbLine
10
135.62220853134369
20
300.42832394052562
30
0
11
126.80542974695658
21
288.2930690249014
31
0
0
LINE
5
134
100
AcDbEntity
8
0
100
AcDbLine
10
142.60621976468079
20
301.534482650938
30
0
11
135.62220853134369
21
300.42832394052562
31
0
0
LINE
5
135
100
AcDbEntity
8
0
100
AcDbLine
10
160.99787277013797
20
288.17216458215574
30
0
11
142.60621976468079
21
301.534482650938
31
0
0
LINE
5
136
100
AcDbEntity
8
0
100
AcDbLine
10
160.99787277013797
20
288.17216458215574
30
0
11
162.1040314805503
21
281.18815334881867
31
0
0
LINE
5
137
100
AcDbEntity
8
0
100
AcDbLine
10
153.28725269616319
20
269.05289843319446
30
0
11
162.1040314805503
21
281.18815334881867
31
0
0
LINE
5
138
100
AcDbEntity
8
0
100
AcDbLine
10
189.88028162075679
20
261.00752635344378
30
0
11
181.06350283636971
21
248.87227143781956
31
0
0
LINE
5
139
100
AcDbEntity
8
0
100
AcDbLine
10
196.86429285409389
20
262.11368506385617
30
0
11
189.88028162075679
21
261.00752635344378
31
0
0
LINE
5
140
100
AcDbEntity
8
0
100
AcDbLine
10
215.25594585955105
20
248.75136699507394
30
0
11
196.86429285409389
21
262.11368506385617
31
0
0
LINE
5
141
100
AcDbEntity
8
0
100
AcDbLine
10
215.25594585955105
20
248.75136699507394
30
0
11
216.36210456996341
21
241.76735576173684
31
0
0
LINE
5
142
100
AcDbEntity
8
0
100
AcDbLine
10
207.5453257855763
20
229.63210084611259
30
0
11
216.36210456996341
21
241.76735576173684
31
0
0
LINE
5
143
100
AcDbEntity
8
0
100
AcDbLine
10
269.51401894896418
20
209.33056940799204
30
0
11
251.12236594350705
21
222.69288747677425
31
0
0
LINE
5
144
100
AcDbEntity
8
0
100
AcDbLine
10
269.51401894896418
20
209.33056940799204
30
0
11
270.62017765937651
21
202.34655817465494
31
0
0
LINE
5
145
100
AcDbEntity
8
0
100
AcDbLine
10
261.80339887498945
20
190.21130325903073
30
0
11
270.62017765937651
21
202.34655817465494
31
0
0
LINE
5
146
100
AcDbEntity
8
0
100
AcDbLine
10
251.12236594350705
20
222.69288747677425
30
0
11
244.13835471016995
21
221.58672876636189
31
0
0
LINE
5
147
100
AcDbEntity
8
0
100
AcDbLine
10
244.13835471016995
20
221.58672876636189
30
0
11
235.32157592578284
21
209.45147385073767
31
0
0
LINE
5
148
100
AcDbEntity
8
0
100
AcDbLine
10
-43.814747912420025
20
221.82184286727897
30
0
11
-34.997969128032921
21
209.68658795165476
31
0
0
LINE
5
149
100
AcDbEntity
8
0
100
AcDbLine
10
-42.708589202007659
20
228.80585410061605
30
0
11
-43.814747912420025
21
221.82184286727897
31
0
0
LINE
5
150
100
AcDbEntity
8
0
100
AcDbLine
10
-24.3169361965505
20
242.16817216939828
30
0
11
-42.708589202007659
21
228.80585410061605
31
0
0
LINE
5
151
100
AcDbEntity
8
0
100
AcDbLine
10
-24.3169361965505
20
242.16817216939828
30
0
11
-17.332924963213383
21
241.06201345898592
31
0
0
LINE
5
152
100
AcDbEntity
8
0
100
AcDbLine
10
-8.5161461788263004
20
228.9267585433617
30
0
11
-17.332924963213383
21
241.06201345898592
31
0
0
LINE
5
153
100
AcDbEntity
8
0
100
AcDbLine
10
10.443325176993117
20
261.24264045436075
30
0
11
19.260103961380235
21
249.10738553873659
31
0
0
LINE
5
154
100
AcDbEntity
8
0
100
AcDbLine
10
11.549483887405501
20
268.22665168769788
30
0
11
10.443325176993117
21
261.24264045436075
31
0
0
LINE
5
155
100
AcDbEntity
8
0
100
AcDbLine
10
29.941136892862652
20
281.58896975648014
30
0
11
11.549483887405501
21
268.22665168769788
31
0
0
LINE
5
156
100
AcDbEntity
8
0
100
AcDbLine
10
29.941136892862652
20
281.58896975648014
30
0
11
36.925148126199744
21
280.48281104606775
31
0
0
LINE
5
157
100
AcDbEntity
8
0
100
AcDbLine
10
45.741926910586848
20
268.34755613044354
30
0
11
36.925148126199744
21
280.48281104606775
31
0
0
LINE
5
158
100
AcDbEntity
8
0
100
AcDbLine
10
84.199209982275818
20
321.00976734356203
30
0
11
65.807556976818674
21
307.64744927477977
31
0
0
LINE
5
159
100
AcDbEntity
8
0
100
AcDbLine
10
84.199209982275818
20
321.00976734356203
30
0
11
91.183221215612917
21
319.90360863314959
31
0
0
LINE
5
160
100
AcDbEntity
8
0
100
AcDbLine
10
100.00000000000001
20
307.76835371752543
30
0
11
91.183221215612917
21
319.90360863314959
31
0
0
LINE
5
161
100
AcDbEntity
8
0
100
AcDbLine
10
65.807556976818674
20
307.64744927477977
30
0
11
64.701398266406301
21
300.66343804144265
31
0
0
LINE
5
162
100
AcDbEntity
8
0
100
AcDbLine
10
64.701398266406301
20
300.66343804144265
30
0
11
73.518177050793398
21
288.52818312581849
31
0
0
LINE
5
163
100
AcDbEntity
8
0
100
AcDbLine
10
-24.504610824717254
20
26.876417657621907
30
0
11
-10.238763080289948
21
31.511672573246123
31
0
0
LINE
5
164
100
AcDbEntity
8
0
100
AcDbLine
10
-30.804978378067752
20
30.08661526722296
30
0
11
-24.504610824717254
21
26.876417657621907
31
0
0
LINE
5
165
100
AcDbEntity
8
0
100
AcDbLine
10
-37.829964716858214
20
51.707300070999445
30
0
11
-30.804978378067752
21
30.08661526722296
31
0
0
LINE
5
166
100
AcDbEntity
8
0
100
AcDbLine
10
-37.829964716858214
20
51.707300070999445
30
0
11
-34.619767107257189
21
58.007667624349963
31
0
0
LINE
5
167
100
AcDbEntity
8
0
100
AcDbLine
10
-20.353919362829878
20
62.642922539974144
30
0
11
-34.619767107257189
21
58.007667624349963
31
0
0
LINE
5
168
100
AcDbEntity
8
0
100
AcDbLine
10
-45.229350580797032
20
90.660608017150224
30
0
11
-30.963502836369731
21
95.29586293277444
31
0
0
LINE
5
169
100
AcDbEntity
8
0
100
AcDbLine
10
-51.529718134147529
20
93.870805626751235
30
0
11
-45.229350580797032
21
90.660608017150224
31
0
0
LINE
5
170
100
AcDbEntity
8
0
100
AcDbLine
10
-58.554704472937999
20
115.49149043052772
30
0
11
-51.529718134147529
21
93.870805626751235
31
0
0
LINE
5
171
100
AcDbEntity
8
0
100
AcDbLine
10
-58.554704472937999
20
115.49149043052772
30
0
11
-55.344506863336974
21
121.79185798387823
31
0
0
LINE
5
172
100
AcDbEntity
8
0
100
AcDbLine
10
-41.07865911890967
20
126.42711289950245
30
0
11
-55.344506863336974
21
121.79185798387823
31
0
0
LINE
5
173
100
AcDbEntity
8
0
100
AcDbLine
10
-79.279444229017798
20
179.27568079005607
30
0
11
-72.254457890227314
21
157.65499598627954
31
0
0
LINE
5
174
100
AcDbEntity
8
0
100
AcDbLine
10
-79.279444229017798
20
179.27568079005607
30
0
11
-76.069246619416759
21
185.57604834340654
31
0
0
LINE
5
175
100
AcDbEntity
8
0
100
AcDbLine
10
-61.803398874989455
20
190.21130325903076
30
0
11
-76.069246619416759
21
185.57604834340654
31
0
0
LINE
5
176
100
AcDbEntity
8
0
100
AcDbLine
10
-72.254457890227314
20
157.65499598627954
30
0
11
-65.954090336876817
21
154.44479837667853
31
0
0
LINE
5
177
100
AcDbEntity
8
0
100
AcDbLine
10
-65.954090336876817
20
154.44479837667853
30
0
11
-51.688242592449512
21
159.08005329230272
31
0
0
LINE
5
178
100
AcDbEntity
8
0
100
AcDbLine
10
210.11515628253994
20
31.131249966728035
30
0
11
220.7247397560798
21
63.784190359528317
31
0
0
LINE
5
179
100
AcDbEntity
8
0
100
AcDbLine
10
230.83989603861977
20
94.915440326256331
30
0
11
241.4494795121596
21
127.56838071905662
31
0
0
LINE
5
180
100
AcDbEntity
8
0
100
AcDbLine
10
251.56463579469957
20
158.69963068578465
30
0
11
261.80339887498951
21
190.21130325903073
31
0
0
LINE
5
181
100
AcDbEntity
8
0
100
AcDbLine
10
235.32157592578284
20
209.45147385073767
30
0
11
207.5453257855763
21
229.63210084611259
31
0
0
LINE
5
182
100
AcDbEntity
8
0
100
AcDbLine
10
181.06350283636971
20
248.87227143781956
30
0
11
153.28725269616319
21
269.05289843319446
31
0
0
LINE
5
183
100
AcDbEntity
8
0
100
AcDbLine
10
126.80542974695658
20
288.2930690249014
30
0
11
100.00000000000001
21
307.76835371752537
31
0
0
LINE
5
184
100
AcDbEntity
8
0
100
AcDbLine
10
73.518177050793398
20
288.52818312581849
30
0
11
45.741926910586848
21
268.34755613044354
31
0
0
LINE
5
185
100
AcDbEntity
8
0
100
AcDbLine
10
19.260103961380235
20
249.10738553873659
30
0
11
-8.5161461788263004
21
228.9267585433617
31
0
0
LINE
5
186
100
AcDbEntity
8
0
100
AcDbLine
10
-34.997969128032921
20
209.68658795165476
30
0
11
-61.80339887498949
21
190.21130325903076
31
0
0
LINE
5
187
100
AcDbEntity
8
0
100
AcDbLine
10
-51.688242592449512
20
159.08005329230272
30
0
11
-41.07865911890967
21
126.42711289950245
31
0
0
LINE
5
188
100
AcDbEntity
8
0
100
AcDbLine
10
-30.963502836369731
20
95.29586293277444
30
0
11
-20.353919362829878
21
62.642922539974144
31
0
0
LINE
5
189
100
AcDbEntity
8
0
100
AcDbLine
10
-10.238763080289948
20
31.511672573246123
30
0
11
0
21
0
31
0
0
LWPOLYLINE
5
190
100
AcDbEntity
8
0
100
AcDbPolyline
90
4
70
1
43
0.0
10
104.75
20
248.93819204711735
10
104.75
20
217.63819204711737
10
95.25
20
217.63819204711737
10
95.25
20
248.93819204711735
0
LWPOLYLINE
5
191
100
AcDbEntity
8
0
100
AcDbPolyline
90
4
70
1
43
0.0
10
33.092967697244866
20
93.524571379141292
10
5.9863725587919348
20
77.874571379141301
10
1.2363725587919561
20
86.101812715093473
10
28.342967697244887
20
101.75181271509346
0
LWPOLYLINE
5
192
100
AcDbEntity
8
0
100
AcDbPolyline
90
4
70
1
43
0.0
10
171.65703230275506
20
101.75181271509342
10
198.76362744120797
20
86.101812715093445
10
194.01362744120797
20
77.874571379141287
10
166.90703230275506
20
93.524571379141264
0
ENDSEC
0
SECTION
2
OBJECTS
0
DICTIONARY
5
C
100
AcDbDictionary
3
ACAD_GROUP
350
D
3
ACAD_MLINESTYLE
350
17
0
DICTIONARY
5
D
100
AcDbDictionary
0
DICTIONARY
5
1A
330
C
100
AcDbDictionary
0
DICTIONARY
5
17
100
AcDbDictionary
0
ENDSEC
0
EOF
